  0
SECTION
  2
HEADER
  9
$ACADVER
  1
AC1009
  9
$DWGCODEPAGE
  3
ansi_1256
  9
$INSBASE
 10
0.0
 20
0.0
 30
0.0
  9
$EXTMIN
 10
-60.0
 20
-55.0
 30
0.0
  9
$EXTMAX
 10
60.0
 20
55.0
 30
0.0
  9
$LIMMIN
 10
0.0
 20
0.0
  9
$LIMMAX
 10
12.0
 20
9.0
  9
$ORTHOMODE
 70
     0
  9
$REGENMODE
 70
     1
  9
$FILLMODE
 70
     1
  9
$QTEXTMODE
 70
     0
  9
$MIRRTEXT
 70
     1
  9
$DRAGMODE
 70
     2
  9
$LTSCALE
 40
1.0
  9
$OSMODE
 70
    37
  9
$ATTMODE
 70
     1
  9
$TEXTSIZE
 40
0.2
  9
$TRACEWID
 40
0.05
  9
$TEXTSTYLE
  7
STANDARD
  9
$CLAYER
  8
0
  9
$CELTYPE
  6
BYLAYER
  9
$CECOLOR
 62
   256
  9
$DIMSCALE
 40
1.0
  9
$DIMASZ
 40
0.18
  9
$DIMEXO
 40
0.0625
  9
$DIMDLI
 40
0.38
  9
$DIMRND
 40
0.0
  9
$DIMDLE
 40
0.0
  9
$DIMEXE
 40
0.18
  9
$DIMTP
 40
0.0
  9
$DIMTM
 40
0.0
  9
$DIMTXT
 40
0.18
  9
$DIMCEN
 40
0.09
  9
$DIMTSZ
 40
0.0
  9
$DIMTOL
 70
     0
  9
$DIMLIM
 70
     0
  9
$DIMTIH
 70
     1
  9
$DIMTOH
 70
     1
  9
$DIMSE1
 70
     0
  9
$DIMSE2
 70
     0
  9
$DIMTAD
 70
     0
  9
$DIMZIN
 70
     0
  9
$DIMBLK
  1

  9
$DIMASO
 70
     1
  9
$DIMSHO
 70
     1
  9
$DIMPOST
  1

  9
$DIMAPOST
  1

  9
$DIMALT
 70
     0
  9
$DIMALTD
 70
     2
  9
$DIMALTF
 40
25.4
  9
$DIMLFAC
 40
1.0
  9
$DIMTOFL
 70
     0
  9
$DIMTVP
 40
0.0
  9
$DIMTIX
 70
     0
  9
$DIMSOXD
 70
     0
  9
$DIMSAH
 70
     0
  9
$DIMBLK1
  1

  9
$DIMBLK2
  1

  9
$DIMSTYLE
  2
STANDARD
  9
$DIMCLRD
 70
     0
  9
$DIMCLRE
 70
     0
  9
$DIMCLRT
 70
     0
  9
$DIMTFAC
 40
1.0
  9
$DIMGAP
 40
0.09
  9
$LUNITS
 70
     2
  9
$LUPREC
 70
     4
  9
$SKETCHINC
 40
0.1
  9
$FILLETRAD
 40
0.5
  9
$AUNITS
 70
     0
  9
$AUPREC
 70
     0
  9
$MENU
  1
.
  9
$ELEVATION
 40
0.0
  9
$PELEVATION
 40
0.0
  9
$THICKNESS
 40
0.0
  9
$LIMCHECK
 70
     0
  9
$CHAMFERA
 40
0.5
  9
$CHAMFERB
 40
0.5
  9
$SKPOLY
 70
     0
  9
$TDCREATE
 40
2454910.5
  9
$TDUPDATE
 40
2456833.49554375
  9
$TDINDWG
 40
0.0000000116
  9
$TDUSRTIMER
 40
0.0000000116
  9
$USRTIMER
 70
     1
  9
$ANGBASE
 50
0.0
  9
$ANGDIR
 70
     0
  9
$PDMODE
 70
     0
  9
$PDSIZE
 40
0.0
  9
$PLINEWID
 40
0.0
  9
$COORDS
 70
     1
  9
$SPLFRAME
 70
     0
  9
$SPLINETYPE
 70
     6
  9
$SPLINESEGS
 70
     8
  9
$ATTDIA
 70
     0
  9
$ATTREQ
 70
     1
  9
$HANDLING
 70
     1
  9
$HANDSEED
  5
309
  9
$SURFTAB1
 70
     6
  9
$SURFTAB2
 70
     6
  9
$SURFTYPE
 70
     6
  9
$SURFU
 70
     6
  9
$SURFV
 70
     6
  9
$UCSNAME
  2

  9
$UCSORG
 10
0.0
 20
0.0
 30
0.0
  9
$UCSXDIR
 10
1.0
 20
0.0
 30
0.0
  9
$UCSYDIR
 10
0.0
 20
1.0
 30
0.0
  9
$PUCSNAME
  2

  9
$PUCSORG
 10
0.0
 20
0.0
 30
0.0
  9
$PUCSXDIR
 10
1.0
 20
0.0
 30
0.0
  9
$PUCSYDIR
 10
0.0
 20
1.0
 30
0.0
  9
$USERI1
 70
     0
  9
$USERI2
 70
     0
  9
$USERI3
 70
     0
  9
$USERI4
 70
     0
  9
$USERI5
 70
     0
  9
$USERR1
 40
0.0
  9
$USERR2
 40
0.0
  9
$USERR3
 40
0.0
  9
$USERR4
 40
0.0
  9
$USERR5
 40
0.0
  9
$WORLDVIEW
 70
     1
  9
$SHADEDGE
 70
     3
  9
$SHADEDIF
 70
    70
  9
$TILEMODE
 70
     1
  9
$MAXACTVP
 70
    64
  9
$PLIMCHECK
 70
     0
  9
$PEXTMIN
 10
1.000000000000000E+20
 20
1.000000000000000E+20
 30
1.000000000000000E+20
  9
$PEXTMAX
 10
-1.000000000000000E+20
 20
-1.000000000000000E+20
 30
-1.000000000000000E+20
  9
$PLIMMIN
 10
0.0
 20
0.0
  9
$PLIMMAX
 10
12.0
 20
9.0
  9
$UNITMODE
 70
     0
  9
$VISRETAIN
 70
     1
  9
$PLINEGEN
 70
     0
  9
$PSLTSCALE
 70
     1
  0
ENDSEC
  0
SECTION
  2
TABLES
  0
TABLE
  2
VPORT
 70
     1
  0
VPORT
  2
*ACTIVE
 70
     0
 10
0.0
 20
0.0
 11
1.0
 21
1.0
 12
10.42990654205607
 22
4.5
 13
0.0
 23
0.0
 14
0.5
 24
0.5
 15
0.5
 25
0.5
 16
0.0
 26
0.0
 36
1.0
 17
0.0
 27
0.0
 37
0.0
 40
9.0
 41
1.972972972850329
 42
50.0
 43
0.0
 44
0.0
 50
0.0
 51
0.0
 71
     0
 72
   100
 73
     1
 74
     3
 75
     0
 76
     0
 77
     0
 78
     0
  0
ENDTAB
  0
TABLE
  2
LTYPE
 70
     2
  0
LTYPE
  2
CONTINUOUS
 70
     0
  3
Solid line
 72
    65
 73
     0
 40
0.0
  0
LTYPE
  2
CONTINUOUS2
 70
     0
  3
Solid Line
 72
    65
 73
     0
 40
0.0
  0
ENDTAB
  0
TABLE
  2
LAYER
 70
     2
  0
LAYER
  2
0
 70
     0
 62
     7
  6
CONTINUOUS
  0
LAYER
  2
LAYER_1
 70
     0
 62
    18
  6
CONTINUOUS
  0
ENDTAB
  0
TABLE
  2
STYLE
 70
     1
  0
STYLE
  2
STANDARD
 70
     0
 40
0.0
 41
1.0
 50
0.0
 71
     0
 42
0.2
  3
txt
  4

  0
ENDTAB
  0
TABLE
  2
VIEW
 70
     0
  0
ENDTAB
  0
TABLE
  2
UCS
 70
     0
  0
ENDTAB
  0
TABLE
  2
APPID
 70
     1
  0
APPID
  2
ACAD
 70
     0
  0
ENDTAB
  0
TABLE
  2
DIMSTYLE
 70
     1
  0
DIMSTYLE
  2
STANDARD
 70
     0
  3

  4

  5

  6

  7

 40
1.0
 41
0.18
 42
0.0625
 43
0.38
 44
0.18
 45
0.0
 46
0.0
 47
0.0
 48
0.0
140
0.18
141
0.09
142
0.0
143
25.4
144
1.0
145
0.0
146
1.0
147
0.09
 71
     0
 72
     0
 73
     1
 74
     1
 75
     0
 76
     0
 77
     0
 78
     0
170
     0
171
     2
172
     0
173
     0
174
     0
175
     0
176
     0
177
     0
178
     0
  0
ENDTAB
  0
ENDSEC
  0
SECTION
  2
BLOCKS
  0
BLOCK
  8
0
  2
$MODEL_SPACE
 70
     0
 10
0.0
 20
0.0
 30
0.0
  3
$MODEL_SPACE
  1

  0
ENDBLK
  5
21
  8
0
  0
BLOCK
 67
     1
  8
0
  2
$PAPER_SPACE
 70
     0
 10
0.0
 20
0.0
 30
0.0
  3
$PAPER_SPACE
  1

  0
ENDBLK
  5
1D
 67
     1
  8
0
  0
ENDSEC
  0
SECTION
  2
ENTITIES
  0
POLYLINE
  5
41
  8
LAYER_1
 66
     1
 10
0.0
 20
0.0
 30
0.0
 70
     1
  0
VERTEX
  5
92
  8
LAYER_1
 10
-0.0010276936255165
 20
-17.3215328225057
 30
0.0
  0
VERTEX
  5
93
  8
LAYER_1
 10
-4.789821710433182
 20
-25.61583710731168
 30
0.0
  0
VERTEX
  5
94
  8
LAYER_1
 10
-4.789821708295668
 20
-32.37146879051352
 30
0.0
  0
VERTEX
  5
95
  8
LAYER_1
 10
-1.666078002838252
 20
-32.36724826043652
 30
0.0
  0
VERTEX
  5
96
  8
LAYER_1
 10
-0.0010276879734632
 20
-35.08102859207187
 30
0.0
  0
VERTEX
  5
97
  8
LAYER_1
 10
1.66402262513962
 20
-32.36724825937979
 30
0.0
  0
VERTEX
  5
98
  8
LAYER_1
 10
4.787766330599176
 20
-32.37146878747395
 30
0.0
  0
VERTEX
  5
99
  8
LAYER_1
 10
4.78776632844698
 20
-25.61583710427186
 30
0.0
  0
SEQEND
  5
9A
  8
LAYER_1
  0
POLYLINE
  5
42
  8
LAYER_1
 66
     1
 10
0.0
 20
0.0
 30
0.0
 70
     1
  0
VERTEX
  5
9B
  8
LAYER_1
 10
-27.2385414911422
 20
-17.56065139738975
 30
0.0
  0
VERTEX
  5
9C
  8
LAYER_1
 10
-25.63657124066203
 20
-20.32688488066364
 30
0.0
  0
VERTEX
  5
9D
  8
LAYER_1
 10
-19.79365927187369
 20
-16.95353106023344
 30
0.0
  0
VERTEX
  5
9E
  8
LAYER_1
 10
-15.00484643440854
 20
-8.659194178076067
 30
0.0
  0
VERTEX
  5
9F
  8
LAYER_1
 10
-24.58244455904836
 20
-8.659194180945823
 30
0.0
  0
VERTEX
  5
A0
  8
LAYER_1
 10
-30.43313288698101
 20
-12.03703761391403
 30
0.0
  0
VERTEX
  5
A1
  8
LAYER_1
 10
-28.83055062883175
 20
-14.80277346230071
 30
0.0
  0
VERTEX
  5
A2
  8
LAYER_1
 10
-30.42283717284046
 20
-17.56065139833283
 30
0.0
  0
SEQEND
  5
A3
  8
LAYER_1
  0
POLYLINE
  5
43
  8
LAYER_1
 66
     1
 10
0.0
 20
0.0
 30
0.0
 70
     1
  0
VERTEX
  5
A4
  8
LAYER_1
 10
35.72725786579905
 20
10.62814743493078
 30
0.0
  0
VERTEX
  5
A5
  8
LAYER_1
 10
32.32768654237761
 20
8.665434840087624
 30
0.0
  0
VERTEX
  5
A6
  8
LAYER_1
 10
36.24897640210845
 20
8.665434841246705
 30
0.0
  0
VERTEX
  5
A7
  8
LAYER_1
 10
36.24897640353678
 20
3.83217120311677
 30
0.0
  0
VERTEX
  5
A8
  8
LAYER_1
 10
38.78681649650377
 20
2.275118606250481
 30
0.0
  0
VERTEX
  5
A9
  8
LAYER_1
 10
41.34185579998478
 20
3.842723515199576
 30
0.0
  0
VERTEX
  5
AA
  8
LAYER_1
 10
41.34289237592885
 20
11.08090717277435
 30
0.0
  0
VERTEX
  5
AB
  8
LAYER_1
 10
37.60309446384817
 20
17.56689262101321
 30
0.0
  0
VERTEX
  5
AC
  8
LAYER_1
 10
34.65630002252445
 20
17.56689259554731
 30
0.0
  0
VERTEX
  5
AD
  8
LAYER_1
 10
33.18606522334144
 20
15.02041116698576
 30
0.0
  0
SEQEND
  5
AE
  8
LAYER_1
  0
POLYLINE
  5
44
  8
LAYER_1
 66
     1
 10
0.0
 20
0.0
 30
0.0
 70
     1
  0
VERTEX
  5
AF
  8
LAYER_1
 10
2.271014645208362
 20
38.79035540422228
 30
0.0
  0
VERTEX
  5
B0
  8
LAYER_1
 10
3.828101458586982
 20
36.25253926072932
 30
0.0
  0
VERTEX
  5
B1
  8
LAYER_1
 10
8.6614386975922
 20
36.25253926226077
 30
0.0
  0
VERTEX
  5
B2
  8
LAYER_1
 10
8.661438698833695
 20
32.33137035891755
 30
0.0
  0
VERTEX
  5
B3
  8
LAYER_1
 10
10.62415535789374
 20
35.73084194570461
 30
0.0
  0
VERTEX
  5
B4
  8
LAYER_1
 10
15.01649894445339
 20
33.18968292661871
 30
0.0
  0
VERTEX
  5
B5
  8
LAYER_1
 10
17.56300443604157
 20
34.65988544028315
 30
0.0
  0
VERTEX
  5
B6
  8
LAYER_1
 10
17.5630044597041
 20
37.60667034423501
 30
0.0
  0
VERTEX
  5
B7
  8
LAYER_1
 10
11.07692142071484
 20
41.34640705245506
 30
0.0
  0
VERTEX
  5
B8
  8
LAYER_1
 10
3.838653934880789
 20
41.34537049263467
 30
0.0
  0
SEQEND
  5
B9
  8
LAYER_1
  0
POLYLINE
  5
45
  8
LAYER_1
 66
     1
 10
0.0
 20
0.0
 30
0.0
 70
     1
  0
VERTEX
  5
BA
  8
LAYER_1
 10
41.34289255026201
 20
-11.07466677538617
 30
0.0
  0
VERTEX
  5
BB
  8
LAYER_1
 10
41.34185596988721
 20
-3.836483117813072
 30
0.0
  0
VERTEX
  5
BC
  8
LAYER_1
 10
38.78681666544657
 20
-2.268878210427607
 30
0.0
  0
VERTEX
  5
BD
  8
LAYER_1
 10
36.24897657343287
 20
-3.825930808848957
 30
0.0
  0
VERTEX
  5
BE
  8
LAYER_1
 10
36.24897657496447
 20
-8.659194446977773
 30
0.0
  0
VERTEX
  5
BF
  8
LAYER_1
 10
32.32768671523268
 20
-8.659194448219322
 30
0.0
  0
VERTEX
  5
C0
  8
LAYER_1
 10
35.72725803985713
 20
-10.62190704097902
 30
0.0
  0
VERTEX
  5
C1
  8
LAYER_1
 10
33.18606540009046
 20
-15.01417077459305
 30
0.0
  0
VERTEX
  5
C2
  8
LAYER_1
 10
34.65630020083199
 20
-17.56065220225243
 30
0.0
  0
VERTEX
  5
C3
  8
LAYER_1
 10
37.60309464215568
 20
-17.5606522259145
 30
0.0
  0
SEQEND
  5
C4
  8
LAYER_1
  0
POLYLINE
  5
46
  8
LAYER_1
 66
     1
 10
0.0
 20
0.0
 30
0.0
 70
     1
  0
VERTEX
  5
C5
  8
LAYER_1
 10
-34.01031478203387
 20
23.78048803074655
 30
0.0
  0
VERTEX
  5
C6
  8
LAYER_1
 10
-32.54058298107919
 20
21.23487781060462
 30
0.0
  0
VERTEX
  5
C7
  8
LAYER_1
 10
-29.59267306370059
 20
21.23487778693292
 30
0.0
  0
VERTEX
  5
C8
  8
LAYER_1
 10
-27.05334369800213
 20
25.62392098897773
 30
0.0
  0
VERTEX
  5
C9
  8
LAYER_1
 10
-23.66730831192315
 20
23.66902325123621
 30
0.0
  0
VERTEX
  5
CA
  8
LAYER_1
 10
-25.62223385149563
 20
27.05500043035969
 30
0.0
  0
VERTEX
  5
CB
  8
LAYER_1
 10
-21.23313470785286
 20
29.59428240375038
 30
0.0
  0
VERTEX
  5
CC
  8
LAYER_1
 10
-21.23313473332822
 20
32.54218275841757
 30
0.0
  0
VERTEX
  5
CD
  8
LAYER_1
 10
-23.778769024587
 20
34.01188229016519
 30
0.0
  0
VERTEX
  5
CE
  8
LAYER_1
 10
-30.26512872121252
 20
30.26676759107364
 30
0.0
  0
SEQEND
  5
CF
  8
LAYER_1
  0
POLYLINE
  5
47
  8
LAYER_1
 66
     1
 10
0.0
 20
0.0
 30
0.0
 70
     1
  0
VERTEX
  5
D0
  8
LAYER_1
 10
-4.789821896435134
 20
25.62207804818904
 30
0.0
  0
VERTEX
  5
D1
  8
LAYER_1
 10
-0.0010278743611739
 20
17.32777376642256
 30
0.0
  0
VERTEX
  5
D2
  8
LAYER_1
 10
4.787766142446662
 20
25.62207805122886
 30
0.0
  0
VERTEX
  5
D3
  8
LAYER_1
 10
4.787766140309116
 20
32.37770973443084
 30
0.0
  0
VERTEX
  5
D4
  8
LAYER_1
 10
1.664022434851766
 20
32.37348920435428
 30
0.0
  0
VERTEX
  5
D5
  8
LAYER_1
 10
-0.0010278800145508
 20
35.08726953599
 30
0.0
  0
VERTEX
  5
D6
  8
LAYER_1
 10
-1.666078193127789
 20
32.37348920329718
 30
0.0
  0
VERTEX
  5
D7
  8
LAYER_1
 10
-4.78982189858563
 20
32.3777097313919
 30
0.0
  0
SEQEND
  5
D8
  8
LAYER_1
  0
POLYLINE
  5
48
  8
LAYER_1
 66
     1
 10
0.0
 20
0.0
 30
0.0
 70
     1
  0
VERTEX
  5
D9
  8
LAYER_1
 10
-27.23854166944805
 20
17.56689232234315
 30
0.0
  0
VERTEX
  5
DA
  8
LAYER_1
 10
-30.42283735114797
 20
17.56689232133458
 30
0.0
  0
VERTEX
  5
DB
  8
LAYER_1
 10
-28.83055080544951
 20
14.80901438627859
 30
0.0
  0
VERTEX
  5
DC
  8
LAYER_1
 10
-30.43313306190422
 20
12.04327853691118
 30
0.0
  0
VERTEX
  5
DD
  8
LAYER_1
 10
-24.58244473190434
 20
8.665435107525001
 30
0.0
  0
VERTEX
  5
DE
  8
LAYER_1
 10
-15.00484660726494
 20
8.665435110518267
 30
0.0
  0
VERTEX
  5
DF
  8
LAYER_1
 10
-19.79365944981027
 20
16.95977198974328
 30
0.0
  0
VERTEX
  5
E0
  8
LAYER_1
 10
-25.63657142066138
 20
20.33312580659559
 30
0.0
  0
SEQEND
  5
E1
  8
LAYER_1
  0
POLYLINE
  5
49
  8
LAYER_1
 66
     1
 10
0.0
 20
0.0
 30
0.0
 70
     1
  0
VERTEX
  5
E2
  8
LAYER_1
 10
30.26307280142209
 20
30.26676732521829
 30
0.0
  0
VERTEX
  5
E3
  8
LAYER_1
 10
23.77671310288869
 20
34.01188201994229
 30
0.0
  0
VERTEX
  5
E4
  8
LAYER_1
 10
21.2310788125396
 20
32.54218248664085
 30
0.0
  0
VERTEX
  5
E5
  8
LAYER_1
 10
21.2310787888673
 20
29.59428213197162
 30
0.0
  0
VERTEX
  5
E6
  8
LAYER_1
 10
25.62017793406438
 20
27.05500016126768
 30
0.0
  0
VERTEX
  5
E7
  8
LAYER_1
 10
23.66525239656394
 20
23.66902298095024
 30
0.0
  0
VERTEX
  5
E8
  8
LAYER_1
 10
27.05128778144806
 20
25.62392072076356
 30
0.0
  0
VERTEX
  5
E9
  8
LAYER_1
 10
29.59061714983372
 20
21.23487752027444
 30
0.0
  0
VERTEX
  5
EA
  8
LAYER_1
 10
32.5385270672122
 20
21.23487754574915
 30
0.0
  0
VERTEX
  5
EB
  8
LAYER_1
 10
34.00825886661145
 20
23.78048776680088
 30
0.0
  0
SEQEND
  5
EC
  8
LAYER_1
  0
POLYLINE
  5
4A
  8
LAYER_1
 66
     1
 10
0.0
 20
0.0
 30
0.0
 70
     1
  0
VERTEX
  5
ED
  8
LAYER_1
 10
17.56300408349846
 20
-27.23398405456212
 30
0.0
  0
VERTEX
  5
EE
  8
LAYER_1
 10
20.32929399604784
 20
-25.63203144400056
 30
0.0
  0
VERTEX
  5
EF
  8
LAYER_1
 10
16.95586838820786
 20
-19.78917866398501
 30
0.0
  0
VERTEX
  5
F0
  8
LAYER_1
 10
8.661438881018157
 20
-15.00046276720591
 30
0.0
  0
VERTEX
  5
F1
  8
LAYER_1
 10
8.661438883887902
 20
-24.57792212010862
 30
0.0
  0
VERTEX
  5
F2
  8
LAYER_1
 10
12.03933029661393
 20
-30.42850977959751
 30
0.0
  0
VERTEX
  5
F3
  8
LAYER_1
 10
14.80509870790557
 20
-28.82595899095904
 30
0.0
  0
VERTEX
  5
F4
  8
LAYER_1
 10
17.56300408444145
 20
-30.41821136367267
 30
0.0
  0
SEQEND
  5
F5
  8
LAYER_1
  0
POLYLINE
  5
4B
  8
LAYER_1
 66
     1
 10
0.0
 20
0.0
 30
0.0
 70
     1
  0
VERTEX
  5
F6
  8
LAYER_1
 10
-35.72931377317256
 20
10.62814769783135
 30
0.0
  0
VERTEX
  5
F7
  8
LAYER_1
 10
-33.18812113340637
 20
15.02041143144537
 30
0.0
  0
VERTEX
  5
F8
  8
LAYER_1
 10
-34.65835593414789
 20
17.56689285910475
 30
0.0
  0
VERTEX
  5
F9
  8
LAYER_1
 10
-37.60515037547157
 20
17.56689288276634
 30
0.0
  0
VERTEX
  5
FA
  8
LAYER_1
 10
-41.34494828357759
 20
11.08090743223825
 30
0.0
  0
VERTEX
  5
FB
  8
LAYER_1
 10
-41.34391170320259
 20
3.842723774664899
 30
0.0
  0
VERTEX
  5
FC
  8
LAYER_1
 10
-38.78887239876205
 20
2.275118867279687
 30
0.0
  0
VERTEX
  5
FD
  8
LAYER_1
 10
-36.25103230674833
 20
3.832171465701299
 30
0.0
  0
VERTEX
  5
FE
  8
LAYER_1
 10
-36.25103230828005
 20
8.665435103829804
 30
0.0
  0
VERTEX
  5
FF
  8
LAYER_1
 10
-32.32974244854804
 20
8.66543510507158
 30
0.0
  0
SEQEND
  5
100
  8
LAYER_1
  0
POLYLINE
  5
4C
  8
LAYER_1
 66
     1
 10
0.0
 20
0.0
 30
0.0
 70
     1
  0
VERTEX
  5
101
  8
LAYER_1
 10
3.838654127743601
 20
-41.33913011820752
 30
0.0
  0
VERTEX
  5
102
  8
LAYER_1
 10
11.0769216135788
 20
-41.34016667359725
 30
0.0
  0
VERTEX
  5
103
  8
LAYER_1
 10
17.56300465027875
 20
-37.60042996140456
 30
0.0
  0
VERTEX
  5
104
  8
LAYER_1
 10
17.56300462481239
 20
-34.65364505745278
 30
0.0
  0
VERTEX
  5
105
  8
LAYER_1
 10
15.01649913232174
 20
-33.18344254534711
 30
0.0
  0
VERTEX
  5
106
  8
LAYER_1
 10
10.62415554732113
 20
-35.72460156712329
 30
0.0
  0
VERTEX
  5
107
  8
LAYER_1
 10
8.661438886177795
 20
-32.32512998153838
 30
0.0
  0
VERTEX
  5
108
  8
LAYER_1
 10
8.66143888733717
 20
-36.24629888488008
 30
0.0
  0
VERTEX
  5
109
  8
LAYER_1
 10
3.82810164833183
 20
-36.24629888630827
 30
0.0
  0
VERTEX
  5
10A
  8
LAYER_1
 10
2.271014836508801
 20
-38.78411503075463
 30
0.0
  0
SEQEND
  5
10B
  8
LAYER_1
  0
POLYLINE
  5
4D
  8
LAYER_1
 66
     1
 10
0.0
 20
0.0
 30
0.0
 70
     1
  0
VERTEX
  5
10C
  8
LAYER_1
 10
-41.34833113405423
 20
-34.57125113924585
 30
0.0
  0
VERTEX
  5
10D
  8
LAYER_1
 10
-47.2557911629148
 20
-40.47861839413601
 30
0.0
  0
VERTEX
  5
10E
  8
LAYER_1
 10
-46.40676429542359
 20
-41.32763192702618
 30
0.0
  0
VERTEX
  5
10F
  8
LAYER_1
 10
-41.3324134221185
 20
-41.32763192552525
 30
0.0
  0
VERTEX
  5
110
  8
LAYER_1
 10
-41.33241342051139
 20
-46.4019031053529
 30
0.0
  0
VERTEX
  5
111
  8
LAYER_1
 10
-40.48340246190818
 20
-47.2509007295689
 30
0.0
  0
VERTEX
  5
112
  8
LAYER_1
 10
-34.57595834195483
 20
-41.34354938333463
 30
0.0
  0
VERTEX
  5
113
  8
LAYER_1
 10
-28.33341734990447
 20
-41.34354938135908
 30
0.0
  0
VERTEX
  5
114
  8
LAYER_1
 10
-33.10089821375146
 20
-33.09620834600485
 30
0.0
  0
VERTEX
  5
115
  8
LAYER_1
 10
-41.34833113590054
 20
-28.32882412112381
 30
0.0
  0
SEQEND
  5
116
  8
LAYER_1
  0
POLYLINE
  5
4E
  8
LAYER_1
 66
     1
 10
0.0
 20
0.0
 30
0.0
 70
     1
  0
VERTEX
  5
117
  8
LAYER_1
 10
-41.34833132277434
 20
34.57749205555992
 30
0.0
  0
VERTEX
  5
118
  8
LAYER_1
 10
-41.34833132079885
 20
28.33506503743653
 30
0.0
  0
VERTEX
  5
119
  8
LAYER_1
 10
-33.10089840156904
 20
33.10244926736905
 30
0.0
  0
VERTEX
  5
11A
  8
LAYER_1
 10
-28.33341754277205
 20
41.3497903056407
 30
0.0
  0
VERTEX
  5
11B
  8
LAYER_1
 10
-34.57595853482049
 20
41.34979030379436
 30
0.0
  0
VERTEX
  5
11C
  8
LAYER_1
 10
-40.4834026583918
 20
47.25714164641185
 30
0.0
  0
VERTEX
  5
11D
  8
LAYER_1
 10
-41.33241361647561
 20
46.40814402167798
 30
0.0
  0
VERTEX
  5
11E
  8
LAYER_1
 10
-41.33241361497448
 20
41.33387284184881
 30
0.0
  0
VERTEX
  5
11F
  8
LAYER_1
 10
-46.40676448828009
 20
41.33387284024319
 30
0.0
  0
VERTEX
  5
120
  8
LAYER_1
 10
-47.25579135525315
 20
40.48485930683393
 30
0.0
  0
SEQEND
  5
121
  8
LAYER_1
  0
POLYLINE
  5
4F
  8
LAYER_1
 66
     1
 10
0.0
 20
0.0
 30
0.0
 70
     1
  0
VERTEX
  5
122
  8
LAYER_1
 10
-17.56505981681444
 20
27.24022471141418
 30
0.0
  0
VERTEX
  5
123
  8
LAYER_1
 10
-20.33134972936379
 20
25.63827210085287
 30
0.0
  0
VERTEX
  5
124
  8
LAYER_1
 10
-16.95792412152376
 20
19.79541932083735
 30
0.0
  0
VERTEX
  5
125
  8
LAYER_1
 10
-8.663494614334288
 20
15.00670342405801
 30
0.0
  0
VERTEX
  5
126
  8
LAYER_1
 10
-8.663494617203945
 20
24.58416277696121
 30
0.0
  0
VERTEX
  5
127
  8
LAYER_1
 10
-12.04138602992968
 20
30.4347504364496
 30
0.0
  0
VERTEX
  5
128
  8
LAYER_1
 10
-14.80715444122159
 20
28.8321996478111
 30
0.0
  0
VERTEX
  5
129
  8
LAYER_1
 10
-17.56505981775715
 20
30.42445202052493
 30
0.0
  0
SEQEND
  5
12A
  8
LAYER_1
  0
POLYLINE
  5
50
  8
LAYER_1
 66
     1
 10
0.0
 20
0.0
 30
0.0
 70
     1
  0
VERTEX
  5
12B
  8
LAYER_1
 10
17.32388175316041
 20
0.0031203362456621
 30
0.0
  0
VERTEX
  5
12C
  8
LAYER_1
 10
25.61834385839844
 20
-4.785614380456565
 30
0.0
  0
VERTEX
  5
12D
  8
LAYER_1
 10
32.37405410802788
 20
-4.78561437831906
 30
0.0
  0
VERTEX
  5
12E
  8
LAYER_1
 10
32.3698335147629
 20
-1.66192202407798
 30
0.0
  0
VERTEX
  5
12F
  8
LAYER_1
 10
35.08368613320426
 20
0.0031203418989906
 30
0.0
  0
VERTEX
  5
130
  8
LAYER_1
 10
32.36983351370633
 20
1.668162706122649
 30
0.0
  0
VERTEX
  5
131
  8
LAYER_1
 10
32.37405410498813
 20
4.79185506036471
 30
0.0
  0
VERTEX
  5
132
  8
LAYER_1
 10
25.61834385535855
 20
4.791855058214043
 30
0.0
  0
SEQEND
  5
133
  8
LAYER_1
  0
POLYLINE
  5
51
  8
LAYER_1
 66
     1
 10
0.0
 20
0.0
 30
0.0
 70
     1
  0
VERTEX
  5
134
  8
LAYER_1
 10
-3.840709668196701
 20
-41.33912983578283
 30
0.0
  0
VERTEX
  5
135
  8
LAYER_1
 10
-2.273070378524275
 20
-38.7841147473702
 30
0.0
  0
VERTEX
  5
136
  8
LAYER_1
 10
-3.830157191902764
 20
-36.24629860387729
 30
0.0
  0
VERTEX
  5
137
  8
LAYER_1
 10
-8.663494430908242
 20
-36.24629860540895
 30
0.0
  0
VERTEX
  5
138
  8
LAYER_1
 10
-8.663494432149607
 20
-32.32512970206583
 30
0.0
  0
VERTEX
  5
139
  8
LAYER_1
 10
-10.62621109120948
 20
-35.72460128885274
 30
0.0
  0
VERTEX
  5
13A
  8
LAYER_1
 10
-15.01855467776952
 20
-33.18344226976693
 30
0.0
  0
VERTEX
  5
13B
  8
LAYER_1
 10
-17.56506016935749
 20
-34.65364478343114
 30
0.0
  0
VERTEX
  5
13C
  8
LAYER_1
 10
-17.56506019301997
 20
-37.60042968738293
 30
0.0
  0
VERTEX
  5
13D
  8
LAYER_1
 10
-11.07897715403072
 20
-41.34016639560301
 30
0.0
  0
SEQEND
  5
13E
  8
LAYER_1
  0
POLYLINE
  5
52
  8
LAYER_1
 66
     1
 10
0.0
 20
0.0
 30
0.0
 70
     1
  0
VERTEX
  5
13F
  8
LAYER_1
 10
41.33035788165856
 20
-41.32763218499638
 30
0.0
  0
VERTEX
  5
140
  8
LAYER_1
 10
46.40470875496414
 20
-41.3276321833913
 30
0.0
  0
VERTEX
  5
141
  8
LAYER_1
 10
47.25373562193718
 20
-40.47861864998163
 30
0.0
  0
VERTEX
  5
142
  8
LAYER_1
 10
41.3462755894584
 20
-34.57125139870807
 30
0.0
  0
VERTEX
  5
143
  8
LAYER_1
 10
41.34627558748296
 20
-28.32882438058439
 30
0.0
  0
VERTEX
  5
144
  8
LAYER_1
 10
33.09884266825317
 20
-33.09620861051672
 30
0.0
  0
VERTEX
  5
145
  8
LAYER_1
 10
28.33136180945602
 20
-41.34354964878844
 30
0.0
  0
VERTEX
  5
146
  8
LAYER_1
 10
34.57390280150463
 20
-41.34354964694254
 30
0.0
  0
VERTEX
  5
147
  8
LAYER_1
 10
40.4813469250758
 20
-47.25090098955973
 30
0.0
  0
VERTEX
  5
148
  8
LAYER_1
 10
41.3303578831597
 20
-46.40190336482586
 30
0.0
  0
SEQEND
  5
149
  8
LAYER_1
  0
POLYLINE
  5
53
  8
LAYER_1
 66
     1
 10
0.0
 20
0.0
 30
0.0
 70
     1
  0
VERTEX
  5
14A
  8
LAYER_1
 10
47.253735429599
 20
40.48485905098762
 30
0.0
  0
VERTEX
  5
14B
  8
LAYER_1
 10
46.40470856210771
 20
41.33387258387798
 30
0.0
  0
VERTEX
  5
14C
  8
LAYER_1
 10
41.33035768880243
 20
41.33387258237673
 30
0.0
  0
VERTEX
  5
14D
  8
LAYER_1
 10
41.33035768719554
 20
46.40814376220499
 30
0.0
  0
VERTEX
  5
14E
  8
LAYER_1
 10
40.48134672859246
 20
47.25714138642079
 30
0.0
  0
VERTEX
  5
14F
  8
LAYER_1
 10
34.57390260863906
 20
41.34979004018669
 30
0.0
  0
VERTEX
  5
150
  8
LAYER_1
 10
28.33136161658868
 20
41.34979003821118
 30
0.0
  0
VERTEX
  5
151
  8
LAYER_1
 10
33.09884248043561
 20
33.10244900285666
 30
0.0
  0
VERTEX
  5
152
  8
LAYER_1
 10
41.34627540258465
 20
28.33506477797562
 30
0.0
  0
VERTEX
  5
153
  8
LAYER_1
 10
41.34627540073834
 20
34.57749179609763
 30
0.0
  0
SEQEND
  5
154
  8
LAYER_1
  0
POLYLINE
  5
54
  8
LAYER_1
 66
     1
 10
0.0
 20
0.0
 30
0.0
 70
     1
  0
VERTEX
  5
155
  8
LAYER_1
 10
23.77671329127121
 20
-34.00564163331311
 30
0.0
  0
VERTEX
  5
156
  8
LAYER_1
 10
30.26307298789652
 20
-30.26052693422128
 30
0.0
  0
VERTEX
  5
157
  8
LAYER_1
 10
34.00825904871792
 20
-23.77424737389424
 30
0.0
  0
VERTEX
  5
158
  8
LAYER_1
 10
32.53852724776334
 20
-21.22863715375249
 30
0.0
  0
VERTEX
  5
159
  8
LAYER_1
 10
29.5906173303845
 20
-21.22863713008085
 30
0.0
  0
VERTEX
  5
15A
  8
LAYER_1
 10
27.05128796468613
 20
-25.61768033212563
 30
0.0
  0
VERTEX
  5
15B
  8
LAYER_1
 10
23.66525257860736
 20
-23.6627825943842
 30
0.0
  0
VERTEX
  5
15C
  8
LAYER_1
 10
25.62017811817989
 20
-27.04875977350739
 30
0.0
  0
VERTEX
  5
15D
  8
LAYER_1
 10
21.23107897453692
 20
-29.58804174689801
 30
0.0
  0
VERTEX
  5
15E
  8
LAYER_1
 10
21.23107900001214
 20
-32.53594210156549
 30
0.0
  0
SEQEND
  5
15F
  8
LAYER_1
  0
POLYLINE
  5
55
  8
LAYER_1
 66
     1
 10
0.0
 20
0.0
 30
0.0
 70
     1
  0
VERTEX
  5
160
  8
LAYER_1
 10
8.661438701285801
 20
24.58416249748825
 30
0.0
  0
VERTEX
  5
161
  8
LAYER_1
 10
8.661438704280245
 20
15.00670314458664
 30
0.0
  0
VERTEX
  5
162
  8
LAYER_1
 10
16.95586820853618
 20
19.79541904644437
 30
0.0
  0
VERTEX
  5
163
  8
LAYER_1
 10
20.32929381279826
 20
25.638271828524
 30
0.0
  0
VERTEX
  5
164
  8
LAYER_1
 10
17.56300389927013
 20
27.2402244373907
 30
0.0
  0
VERTEX
  5
165
  8
LAYER_1
 10
17.56300389826154
 20
30.42445174650267
 30
0.0
  0
VERTEX
  5
166
  8
LAYER_1
 10
14.80509852270364
 20
28.83219937209927
 30
0.0
  0
VERTEX
  5
167
  8
LAYER_1
 10
12.03933011042966
 20
30.43475015904516
 30
0.0
  0
SEQEND
  5
168
  8
LAYER_1
  0
POLYLINE
  5
56
  8
LAYER_1
 66
     1
 10
0.0
 20
0.0
 30
0.0
 70
     1
  0
VERTEX
  5
169
  8
LAYER_1
 10
-27.05334351476433
 20
-25.61768006391171
 30
0.0
  0
VERTEX
  5
16A
  8
LAYER_1
 10
-29.5926728831495
 20
-21.22863686342265
 30
0.0
  0
VERTEX
  5
16B
  8
LAYER_1
 10
-32.54058280052801
 20
-21.22863688889734
 30
0.0
  0
VERTEX
  5
16C
  8
LAYER_1
 10
-34.01031459992737
 20
-23.7742471099488
 30
0.0
  0
VERTEX
  5
16D
  8
LAYER_1
 10
-30.26512853473802
 20
-30.26052666836644
 30
0.0
  0
VERTEX
  5
16E
  8
LAYER_1
 10
-23.77876883620453
 20
-34.00564136309047
 30
0.0
  0
VERTEX
  5
16F
  8
LAYER_1
 10
-21.23313454585556
 20
-32.53594182978904
 30
0.0
  0
VERTEX
  5
170
  8
LAYER_1
 10
-21.23313452218332
 20
-29.58804147511954
 30
0.0
  0
VERTEX
  5
171
  8
LAYER_1
 10
-25.62223366738028
 20
-27.0487595044159
 30
0.0
  0
VERTEX
  5
172
  8
LAYER_1
 10
-23.66730812987986
 20
-23.66278232409829
 30
0.0
  0
SEQEND
  5
173
  8
LAYER_1
  0
POLYLINE
  5
57
  8
LAYER_1
 66
     1
 10
0.0
 20
0.0
 30
0.0
 70
     1
  0
VERTEX
  5
174
  8
LAYER_1
 10
24.58038899858885
 20
-8.659194450672905
 30
0.0
  0
VERTEX
  5
175
  8
LAYER_1
 10
15.00279087394942
 20
-8.659194453666172
 30
0.0
  0
VERTEX
  5
176
  8
LAYER_1
 10
19.79160371649429
 20
-16.95353133289096
 30
0.0
  0
VERTEX
  5
177
  8
LAYER_1
 10
25.63451568734556
 20
-20.32688514974324
 30
0.0
  0
VERTEX
  5
178
  8
LAYER_1
 10
27.23648593613228
 20
-17.56065166549112
 30
0.0
  0
VERTEX
  5
179
  8
LAYER_1
 10
30.42078161783212
 20
-17.56065166448255
 30
0.0
  0
VERTEX
  5
17A
  8
LAYER_1
 10
28.82849507213344
 20
-14.80277372942592
 30
0.0
  0
VERTEX
  5
17B
  8
LAYER_1
 10
30.4310773285886
 20
-12.03703788005908
 30
0.0
  0
SEQEND
  5
17C
  8
LAYER_1
  0
POLYLINE
  5
58
  8
LAYER_1
 66
     1
 10
0.0
 20
0.0
 30
0.0
 70
     1
  0
VERTEX
  5
17D
  8
LAYER_1
 10
-11.07897734689481
 20
41.34640733044932
 30
0.0
  0
VERTEX
  5
17E
  8
LAYER_1
 10
-17.56506038359463
 20
37.60667061825689
 30
0.0
  0
VERTEX
  5
17F
  8
LAYER_1
 10
-17.5650603581282
 20
34.65988571430493
 30
0.0
  0
VERTEX
  5
180
  8
LAYER_1
 10
-15.01855486563772
 20
33.18968320219944
 30
0.0
  0
VERTEX
  5
181
  8
LAYER_1
 10
-10.62621128063698
 20
35.73084222397561
 30
0.0
  0
VERTEX
  5
182
  8
LAYER_1
 10
-8.663494619493706
 20
32.33137063839077
 30
0.0
  0
VERTEX
  5
183
  8
LAYER_1
 10
-8.663494620653081
 20
36.25253954173215
 30
0.0
  0
VERTEX
  5
184
  8
LAYER_1
 10
-3.830157381647734
 20
36.25253954316061
 30
0.0
  0
VERTEX
  5
185
  8
LAYER_1
 10
-2.273070569824755
 20
38.79035568760717
 30
0.0
  0
VERTEX
  5
186
  8
LAYER_1
 10
-3.840709861059481
 20
41.34537077505987
 30
0.0
  0
SEQEND
  5
187
  8
LAYER_1
  0
POLYLINE
  5
59
  8
LAYER_1
 66
     1
 10
0.0
 20
0.0
 30
0.0
 70
     1
  0
VERTEX
  5
188
  8
LAYER_1
 10
-17.32593748647592
 20
0.0031203206066716
 30
0.0
  0
VERTEX
  5
189
  8
LAYER_1
 10
-25.62039959171398
 20
4.791855037308907
 30
0.0
  0
VERTEX
  5
18A
  8
LAYER_1
 10
-32.37610984134334
 20
4.791855035171386
 30
0.0
  0
VERTEX
  5
18B
  8
LAYER_1
 10
-32.37188924807865
 20
1.668162680930346
 30
0.0
  0
VERTEX
  5
18C
  8
LAYER_1
 10
-35.08574186651983
 20
0.0031203149531144
 30
0.0
  0
VERTEX
  5
18D
  8
LAYER_1
 10
-32.37188924702161
 20
-1.661922049270585
 30
0.0
  0
VERTEX
  5
18E
  8
LAYER_1
 10
-32.37610983830368
 20
-4.78561440351235
 30
0.0
  0
VERTEX
  5
18F
  8
LAYER_1
 10
-25.62039958867411
 20
-4.785614401361718
 30
0.0
  0
SEQEND
  5
190
  8
LAYER_1
  0
POLYLINE
  5
5A
  8
LAYER_1
 66
     1
 10
0.0
 20
0.0
 30
0.0
 70
     1
  0
VERTEX
  5
191
  8
LAYER_1
 10
-41.34494810924453
 20
-11.07466651592256
 30
0.0
  0
VERTEX
  5
192
  8
LAYER_1
 10
-37.60515019716407
 20
-17.56065196416138
 30
0.0
  0
VERTEX
  5
193
  8
LAYER_1
 10
-34.65835575584016
 20
-17.56065193869551
 30
0.0
  0
VERTEX
  5
194
  8
LAYER_1
 10
-33.18812095665741
 20
-15.01417051013369
 30
0.0
  0
VERTEX
  5
195
  8
LAYER_1
 10
-35.72931359911455
 20
-10.62190677807899
 30
0.0
  0
VERTEX
  5
196
  8
LAYER_1
 10
-32.32974227569348
 20
-8.659194183235979
 30
0.0
  0
VERTEX
  5
197
  8
LAYER_1
 10
-36.251032135424
 20
-8.659194184395451
 30
0.0
  0
VERTEX
  5
198
  8
LAYER_1
 10
-36.25103213685235
 20
-3.825930546264983
 30
0.0
  0
VERTEX
  5
199
  8
LAYER_1
 10
-38.78887222981926
 20
-2.268877949398923
 30
0.0
  0
VERTEX
  5
19A
  8
LAYER_1
 10
-41.34391153330047
 20
-3.836482858348027
 30
0.0
  0
SEQEND
  5
19B
  8
LAYER_1
  0
POLYLINE
  5
5B
  8
LAYER_1
 66
     1
 10
0.0
 20
0.0
 30
0.0
 70
     1
  0
VERTEX
  5
19C
  8
LAYER_1
 10
-20.33134954611411
 20
-25.63203117167218
 30
0.0
  0
VERTEX
  5
19D
  8
LAYER_1
 10
-17.56505963258624
 20
-27.23398378053889
 30
0.0
  0
VERTEX
  5
19E
  8
LAYER_1
 10
-17.5650596315776
 20
-30.41821108965088
 30
0.0
  0
VERTEX
  5
19F
  8
LAYER_1
 10
-14.80715425601951
 20
-28.82595871524749
 30
0.0
  0
VERTEX
  5
1A0
  8
LAYER_1
 10
-12.04138584374564
 20
-30.42850950219339
 30
0.0
  0
VERTEX
  5
1A1
  8
LAYER_1
 10
-8.663494434601747
 20
-24.57792184063638
 30
0.0
  0
VERTEX
  5
1A2
  8
LAYER_1
 10
-8.663494437596615
 20
-15.00046248773483
 30
0.0
  0
VERTEX
  5
1A3
  8
LAYER_1
 10
-16.95792394185207
 20
-19.7891783895925
 30
0.0
  0
SEQEND
  5
1A4
  8
LAYER_1
  0
POLYLINE
  5
5C
  8
LAYER_1
 66
     1
 10
0.0
 20
0.0
 30
0.0
 70
     1
  0
VERTEX
  5
1A5
  8
LAYER_1
 10
30.43107715366554
 20
12.04327827076581
 30
0.0
  0
VERTEX
  5
1A6
  8
LAYER_1
 10
28.8284948955158
 20
14.80901411915251
 30
0.0
  0
VERTEX
  5
1A7
  8
LAYER_1
 10
30.42078143952464
 20
17.56689205518471
 30
0.0
  0
VERTEX
  5
1A8
  8
LAYER_1
 10
27.23648575782588
 20
17.56689205424181
 30
0.0
  0
VERTEX
  5
1A9
  8
LAYER_1
 10
25.63451550734605
 20
20.33312553751544
 30
0.0
  0
VERTEX
  5
1AA
  8
LAYER_1
 10
19.79160353855775
 20
16.95977171708529
 30
0.0
  0
VERTEX
  5
1AB
  8
LAYER_1
 10
15.00279070109317
 20
8.665434834928169
 30
0.0
  0
VERTEX
  5
1AC
  8
LAYER_1
 10
24.58038882573278
 20
8.665434837797632
 30
0.0
  0
SEQEND
  5
1AD
  8
LAYER_1
  0
POLYLINE
  5
5D
  8
LAYER_1
 66
     1
 10
0.0
 20
0.0
 30
0.0
 70
     1
  0
VERTEX
  5
1AE
  8
LAYER_1
 10
1.751789876678406
 20
6.544644195292817
 30
0.0
  0
VERTEX
  5
1AF
  8
LAYER_1
 10
-0.0010278662477399
 20
9.580565902618508
 30
0.0
  0
VERTEX
  5
1B0
  8
LAYER_1
 10
-1.753845609572145
 20
6.544644195476129
 30
0.0
  0
VERTEX
  5
1B1
  8
LAYER_1
 10
-4.789821885898688
 20
8.297438387744423
 30
0.0
  0
VERTEX
  5
1B2
  8
LAYER_1
 10
-4.789821885949606
 20
4.791855046631796
 30
0.0
  0
VERTEX
  5
1B3
  8
LAYER_1
 10
-8.295476191673382
 20
4.791855048053045
 30
0.0
  0
VERTEX
  5
1B4
  8
LAYER_1
 10
-6.542651559682783
 20
1.755921409044631
 30
0.0
  0
VERTEX
  5
1B5
  8
LAYER_1
 10
-9.578639767780155
 20
0.0031203284394869
 30
0.0
  0
VERTEX
  5
1B6
  8
LAYER_1
 10
-6.54265155977425
 20
-1.749680752326837
 30
0.0
  0
VERTEX
  5
1B7
  8
LAYER_1
 10
-8.295476191926412
 20
-4.785614391243231
 30
0.0
  0
VERTEX
  5
1B8
  8
LAYER_1
 10
-4.789821886202799
 20
-4.785614390007777
 30
0.0
  0
VERTEX
  5
1B9
  8
LAYER_1
 10
-4.789821886338117
 20
-8.291197731120448
 30
0.0
  0
VERTEX
  5
1BA
  8
LAYER_1
 10
-1.753845609920107
 20
-6.538403539013264
 30
0.0
  0
VERTEX
  5
1BB
  8
LAYER_1
 10
-0.0010278667555399
 20
-9.574325246248042
 30
0.0
  0
VERTEX
  5
1BC
  8
LAYER_1
 10
1.751789876332405
 20
-6.538403539016205
 30
0.0
  0
VERTEX
  5
1BD
  8
LAYER_1
 10
4.787766152746526
 20
-8.291197731120587
 30
0.0
  0
VERTEX
  5
1BE
  8
LAYER_1
 10
4.787766152611362
 20
-4.785614390007769
 30
0.0
  0
VERTEX
  5
1BF
  8
LAYER_1
 10
8.293420458333221
 20
-4.785614391243231
 30
0.0
  0
VERTEX
  5
1C0
  8
LAYER_1
 10
6.540595826181155
 20
-1.749680752327221
 30
0.0
  0
VERTEX
  5
1C1
  8
LAYER_1
 10
9.576584033309379
 20
0.0031203279310235
 30
0.0
  0
VERTEX
  5
1C2
  8
LAYER_1
 10
6.540595826276112
 20
1.755921408350921
 30
0.0
  0
VERTEX
  5
1C3
  8
LAYER_1
 10
8.293420458588178
 20
4.79185504717337
 30
0.0
  0
VERTEX
  5
1C4
  8
LAYER_1
 10
4.787766152865928
 20
4.791855046123644
 30
0.0
  0
VERTEX
  5
1C5
  8
LAYER_1
 10
4.787766153187492
 20
8.29743838723619
 30
0.0
  0
SEQEND
  5
1C6
  8
LAYER_1
  0
POLYLINE
  5
5E
  8
LAYER_1
 66
     1
 10
0.0
 20
0.0
 30
0.0
 70
     1
  0
VERTEX
  5
1C7
  8
LAYER_1
 10
-37.77056753899934
 20
49.99977099655753
 30
0.0
  0
VERTEX
  5
1C8
  8
LAYER_1
 10
-32.98412283053105
 20
45.20970915955802
 30
0.0
  0
VERTEX
  5
1C9
  8
LAYER_1
 10
-26.10007441809827
 20
45.20804081080055
 30
0.0
  0
VERTEX
  5
1CA
  8
LAYER_1
 10
-23.33412229203361
 20
49.99605499621787
 30
0.0
  0
SEQEND
  5
1CB
  8
LAYER_1
  0
POLYLINE
  5
5F
  8
LAYER_1
 66
     1
 10
0.0
 20
0.0
 30
0.0
 70
     1
  0
VERTEX
  5
1CC
  8
LAYER_1
 10
-18.86117055523183
 20
49.99762666452641
 30
0.0
  0
VERTEX
  5
1CD
  8
LAYER_1
 10
-21.62715176492435
 20
45.20956213366492
 30
0.0
  0
VERTEX
  5
1CE
  8
LAYER_1
 10
-12.11307185864648
 20
45.20725639691816
 30
0.0
  0
VERTEX
  5
1CF
  8
LAYER_1
 10
-3.874906887868506
 20
49.99501997923535
 30
0.0
  0
SEQEND
  5
1D0
  8
LAYER_1
  0
POLYLINE
  5
60
  8
LAYER_1
 66
     1
 10
0.0
 20
0.0
 30
0.0
 70
     1
  0
VERTEX
  5
1D1
  8
LAYER_1
 10
3.874136984150772
 20
50.0022691263197
 30
0.0
  0
VERTEX
  5
1D2
  8
LAYER_1
 10
3.8693965428093
 20
49.99951506589505
 30
0.0
  0
VERTEX
  5
1D3
  8
LAYER_1
 10
12.1064009262404
 20
45.20975509909717
 30
0.0
  0
VERTEX
  5
1D4
  8
LAYER_1
 10
21.62048110140144
 20
45.20975509628047
 30
0.0
  0
VERTEX
  5
1D5
  8
LAYER_1
 10
18.85566040158234
 20
49.99848981643024
 30
0.0
  0
SEQEND
  5
1D6
  8
LAYER_1
  0
POLYLINE
  5
61
  8
LAYER_1
 66
     1
 10
0.0
 20
0.0
 30
0.0
 70
     1
  0
VERTEX
  5
1D7
  8
LAYER_1
 10
23.32861225776618
 20
49.99843947556865
 30
0.0
  0
VERTEX
  5
1D8
  8
LAYER_1
 10
26.09340389364711
 20
45.2097550949417
 30
0.0
  0
VERTEX
  5
1D9
  8
LAYER_1
 10
32.97745250984448
 20
45.20975509290288
 30
0.0
  0
VERTEX
  5
1DA
  8
LAYER_1
 10
37.76505798136916
 20
49.99865678778042
 30
0.0
  0
SEQEND
  5
1DB
  8
LAYER_1
  0
POLYLINE
  5
62
  8
LAYER_1
 66
     1
 10
0.0
 20
0.0
 30
0.0
 70
     1
  0
VERTEX
  5
1DC
  8
LAYER_1
 10
37.76268695441611
 20
-49.99462536914925
 30
0.0
  0
VERTEX
  5
1DD
  8
LAYER_1
 10
37.76736036363822
 20
-49.98995069462193
 30
0.0
  0
VERTEX
  5
1DE
  8
LAYER_1
 10
32.97982709531634
 20
-45.20368511939344
 30
0.0
  0
VERTEX
  5
1DF
  8
LAYER_1
 10
26.09564794784115
 20
-45.20368511940213
 30
0.0
  0
VERTEX
  5
1E0
  8
LAYER_1
 10
23.33091464003504
 20
-49.99016800683375
 30
0.0
  0
VERTEX
  5
1E1
  8
LAYER_1
 10
23.33348813978329
 20
-49.99462536914925
 30
0.0
  0
SEQEND
  5
1E2
  8
LAYER_1
  0
POLYLINE
  5
63
  8
LAYER_1
 66
     1
 10
0.0
 20
0.0
 30
0.0
 70
     1
  0
VERTEX
  5
1E3
  8
LAYER_1
 10
18.86056534651949
 20
-49.99462536914923
 30
0.0
  0
VERTEX
  5
1E4
  8
LAYER_1
 10
18.8579627838509
 20
-49.99011766916954
 30
0.0
  0
VERTEX
  5
1E5
  8
LAYER_1
 10
18.99136050259451
 20
-49.75906967980806
 30
0.0
  0
VERTEX
  5
1E6
  8
LAYER_1
 10
21.6226084926748
 20
-45.20368512259205
 30
0.0
  0
VERTEX
  5
1E7
  8
LAYER_1
 10
12.10860701324239
 20
-45.20368512260533
 30
0.0
  0
VERTEX
  5
1E8
  8
LAYER_1
 10
3.871698925078198
 20
-49.98909241970509
 30
0.0
  0
VERTEX
  5
1E9
  8
LAYER_1
 10
3.88121400081074
 20
-49.99462536914924
 30
0.0
  0
SEQEND
  5
1EA
  8
LAYER_1
  0
POLYLINE
  5
64
  8
LAYER_1
 66
     1
 10
0.0
 20
0.0
 30
0.0
 70
     1
  0
VERTEX
  5
1EB
  8
LAYER_1
 10
-3.878741506356544
 20
-49.99462536914925
 30
0.0
  0
VERTEX
  5
1EC
  8
LAYER_1
 10
-3.872604505599739
 20
-49.9910587364304
 30
0.0
  0
VERTEX
  5
1ED
  8
LAYER_1
 10
-12.10835257752539
 20
-45.20365535938461
 30
0.0
  0
VERTEX
  5
1EE
  8
LAYER_1
 10
-21.62235376703088
 20
-45.20134963888634
 30
0.0
  0
VERTEX
  5
1EF
  8
LAYER_1
 10
-18.99220989010991
 20
-49.75737174122082
 30
0.0
  0
VERTEX
  5
1F0
  8
LAYER_1
 10
-18.85886817300375
 20
-49.98845205120941
 30
0.0
  0
VERTEX
  5
1F1
  8
LAYER_1
 10
-18.86243439090097
 20
-49.99462536914924
 30
0.0
  0
SEQEND
  5
1F2
  8
LAYER_1
  0
POLYLINE
  5
65
  8
LAYER_1
 66
     1
 10
0.0
 20
0.0
 30
0.0
 70
     1
  0
VERTEX
  5
1F3
  8
LAYER_1
 10
-23.33181990976462
 20
-49.99773087368031
 30
0.0
  0
VERTEX
  5
1F4
  8
LAYER_1
 10
-26.0953930985451
 20
-45.21057808637543
 30
0.0
  0
VERTEX
  5
1F5
  8
LAYER_1
 10
-32.97957204544622
 20
-45.20890970393506
 30
0.0
  0
VERTEX
  5
1F6
  8
LAYER_1
 10
-37.76826515673051
 20
-49.99401487334008
 30
0.0
  0
SEQEND
  5
1F7
  8
LAYER_1
  0
POLYLINE
  5
66
  8
LAYER_1
 66
     1
 10
0.0
 20
0.0
 30
0.0
 70
     1
  0
VERTEX
  5
1F8
  8
LAYER_1
 10
7.661438704655538
 20
11.1112237738742
 30
0.0
  0
VERTEX
  5
1F9
  8
LAYER_1
 10
7.661438705596296
 20
7.665434832892778
 30
0.0
  0
VERTEX
  5
1FA
  8
LAYER_1
 10
11.10721364465869
 20
7.665434833853968
 30
0.0
  0
VERTEX
  5
1FB
  8
LAYER_1
 10
15.81428873804442
 20
15.8182000133926
 30
0.0
  0
SEQEND
  5
1FC
  8
LAYER_1
  0
POLYLINE
  5
67
  8
LAYER_1
 66
     1
 10
0.0
 20
0.0
 30
0.0
 70
     1
  0
VERTEX
  5
1FD
  8
LAYER_1
 10
2.803634458313618
 20
10.47005539382081
 30
0.0
  0
VERTEX
  5
1FE
  8
LAYER_1
 10
5.78776598364535
 20
12.19291747628918
 30
0.0
  0
VERTEX
  5
1FF
  8
LAYER_1
 10
5.787765980662104
 20
21.60686995081508
 30
0.0
  0
VERTEX
  5
200
  8
LAYER_1
 10
1.08072828776077
 20
13.45416954901606
 30
0.0
  0
SEQEND
  5
201
  8
LAYER_1
  0
POLYLINE
  5
68
  8
LAYER_1
 66
     1
 10
0.0
 20
0.0
 30
0.0
 70
     1
  0
VERTEX
  5
202
  8
LAYER_1
 10
21.6031477042203
 20
5.791855056852405
 30
0.0
  0
VERTEX
  5
203
  8
LAYER_1
 10
12.18899751292895
 20
5.791855054070185
 30
0.0
  0
VERTEX
  5
204
  8
LAYER_1
 10
10.46607765479914
 20
2.807717187485049
 30
0.0
  0
VERTEX
  5
205
  8
LAYER_1
 10
13.45023289195086
 20
1.08484141766819
 30
0.0
  0
SEQEND
  5
206
  8
LAYER_1
  0
POLYLINE
  5
69
  8
LAYER_1
 66
     1
 10
0.0
 20
0.0
 30
0.0
 70
     1
  0
VERTEX
  5
207
  8
LAYER_1
 10
10.46607765911919
 20
-2.801476521454687
 30
0.0
  0
VERTEX
  5
208
  8
LAYER_1
 10
12.18899751907318
 20
-5.785614386983948
 30
0.0
  0
VERTEX
  5
209
  8
LAYER_1
 10
21.60314771036451
 20
-5.785614384001506
 30
0.0
  0
VERTEX
  5
20A
  8
LAYER_1
 10
13.45023289521208
 20
-1.078600749808692
 30
0.0
  0
SEQEND
  5
20B
  8
LAYER_1
  0
POLYLINE
  5
6A
  8
LAYER_1
 66
     1
 10
0.0
 20
0.0
 30
0.0
 70
     1
  0
VERTEX
  5
20C
  8
LAYER_1
 10
7.66143887898264
 20
-7.659194454981048
 30
0.0
  0
VERTEX
  5
20D
  8
LAYER_1
 10
7.661438879944493
 20
-11.10498339591049
 30
0.0
  0
VERTEX
  5
20E
  8
LAYER_1
 10
15.8142889160007
 20
-15.81195963091411
 30
0.0
  0
VERTEX
  5
20F
  8
LAYER_1
 10
11.10721381809923
 20
-7.659194454042636
 30
0.0
  0
SEQEND
  5
210
  8
LAYER_1
  0
POLYLINE
  5
6B
  8
LAYER_1
 66
     1
 10
0.0
 20
0.0
 30
0.0
 70
     1
  0
VERTEX
  5
211
  8
LAYER_1
 10
2.803634797915663
 20
-10.46381473264874
 30
0.0
  0
VERTEX
  5
212
  8
LAYER_1
 10
1.080728629193114
 20
-13.44792888890315
 30
0.0
  0
VERTEX
  5
213
  8
LAYER_1
 10
5.787766327085987
 20
-21.60062928781997
 30
0.0
  0
VERTEX
  5
214
  8
LAYER_1
 10
5.787766324302453
 20
-12.18667681329327
 30
0.0
  0
SEQEND
  5
215
  8
LAYER_1
  0
POLYLINE
  5
6C
  8
LAYER_1
 66
     1
 10
0.0
 20
0.0
 30
0.0
 70
     1
  0
VERTEX
  5
216
  8
LAYER_1
 10
-2.805690191629295
 20
-10.46381473696926
 30
0.0
  0
VERTEX
  5
217
  8
LAYER_1
 10
-5.789821716960803
 20
-12.18667681943736
 30
0.0
  0
VERTEX
  5
218
  8
LAYER_1
 10
-5.789821713978311
 20
-21.60062929396307
 30
0.0
  0
VERTEX
  5
219
  8
LAYER_1
 10
-1.082784021076556
 20
-13.44792889216425
 30
0.0
  0
SEQEND
  5
21A
  8
LAYER_1
  0
POLYLINE
  5
6D
  8
LAYER_1
 66
     1
 10
0.0
 20
0.0
 30
0.0
 70
     1
  0
VERTEX
  5
21B
  8
LAYER_1
 10
-2.805690365587169
 20
10.47005567687826
 30
0.0
  0
VERTEX
  5
21C
  8
LAYER_1
 10
-1.082784196867162
 20
13.45416983313285
 30
0.0
  0
VERTEX
  5
21D
  8
LAYER_1
 10
-5.789821894759839
 20
21.60687023204979
 30
0.0
  0
VERTEX
  5
21E
  8
LAYER_1
 10
-5.789821891975993
 20
12.19291775752265
 30
0.0
  0
SEQEND
  5
21F
  8
LAYER_1
  0
POLYLINE
  5
6E
  8
LAYER_1
 66
     1
 10
0.0
 20
0.0
 30
0.0
 70
     1
  0
VERTEX
  5
220
  8
LAYER_1
 10
-7.663494613259934
 20
11.11122405276258
 30
0.0
  0
VERTEX
  5
221
  8
LAYER_1
 10
-15.81634464931674
 20
15.81820028776644
 30
0.0
  0
VERTEX
  5
222
  8
LAYER_1
 10
-11.10926955141482
 20
7.665435110894951
 30
0.0
  0
VERTEX
  5
223
  8
LAYER_1
 10
-7.663494612298158
 20
7.665435111833369
 30
0.0
  0
SEQEND
  5
224
  8
LAYER_1
  0
POLYLINE
  5
6F
  8
LAYER_1
 66
     1
 10
0.0
 20
0.0
 30
0.0
 70
     1
  0
VERTEX
  5
225
  8
LAYER_1
 10
-12.19105325238856
 20
5.79185504383628
 30
0.0
  0
VERTEX
  5
226
  8
LAYER_1
 10
-21.60520344368051
 20
5.791855040853871
 30
0.0
  0
VERTEX
  5
227
  8
LAYER_1
 10
-13.4522886285275
 20
1.084841406661042
 30
0.0
  0
VERTEX
  5
228
  8
LAYER_1
 10
-10.46813339243485
 20
2.807717178307035
 30
0.0
  0
SEQEND
  5
229
  8
LAYER_1
  0
POLYLINE
  5
70
  8
LAYER_1
 66
     1
 10
0.0
 20
0.0
 30
0.0
 70
     1
  0
VERTEX
  5
22A
  8
LAYER_1
 10
-13.45228846031483
 20
-1.078600473270263
 30
0.0
  0
VERTEX
  5
22B
  8
LAYER_1
 10
-21.60520327258756
 20
-5.785614112453889
 30
0.0
  0
VERTEX
  5
22C
  8
LAYER_1
 10
-12.19105308129477
 20
-5.785614109670585
 30
0.0
  0
VERTEX
  5
22D
  8
LAYER_1
 10
-10.46813322316484
 20
-2.801476243086042
 30
0.0
  0
SEQEND
  5
22E
  8
LAYER_1
  0
POLYLINE
  5
71
  8
LAYER_1
 66
     1
 10
0.0
 20
0.0
 30
0.0
 70
     1
  0
VERTEX
  5
22F
  8
LAYER_1
 10
-11.10926937797425
 20
-7.65919417700252
 30
0.0
  0
VERTEX
  5
230
  8
LAYER_1
 10
-15.81634447136068
 20
-15.81195935654105
 30
0.0
  0
VERTEX
  5
231
  8
LAYER_1
 10
-7.663494437971086
 20
-11.10498311702206
 30
0.0
  0
VERTEX
  5
232
  8
LAYER_1
 10
-7.663494438911901
 20
-7.65919417604057
 30
0.0
  0
SEQEND
  5
233
  8
LAYER_1
  0
POLYLINE
  5
72
  8
LAYER_1
 66
     1
 10
0.0
 20
0.0
 30
0.0
 70
     1
  0
VERTEX
  5
234
  8
LAYER_1
 10
48.88304979768999
 20
0.0046620463886361
 30
0.0
  0
VERTEX
  5
235
  8
LAYER_1
 10
44.26048656500289
 20
8.019203883930045
 30
0.0
  0
VERTEX
  5
236
  8
LAYER_1
 10
44.20977484029779
 20
2.166208610858057
 30
0.0
  0
VERTEX
  5
237
  8
LAYER_1
 10
40.46313675868525
 20
0.0031200347598472
 30
0.0
  0
VERTEX
  5
238
  8
LAYER_1
 10
44.21104042706552
 20
-2.160698030913395
 30
0.0
  0
VERTEX
  5
239
  8
LAYER_1
 10
44.27310350370196
 20
-8.025957984600224
 30
0.0
  0
SEQEND
  5
23A
  8
LAYER_1
  0
POLYLINE
  5
73
  8
LAYER_1
 66
     1
 10
0.0
 20
0.0
 30
0.0
 70
     1
  0
VERTEX
  5
23B
  8
LAYER_1
 10
42.35608901974555
 20
-15.18020901771164
 30
0.0
  0
VERTEX
  5
23C
  8
LAYER_1
 10
39.36966777320219
 20
-20.22863704024687
 30
0.0
  0
VERTEX
  5
23D
  8
LAYER_1
 10
35.04198049218711
 20
-20.22863605356198
 30
0.0
  0
VERTEX
  5
23E
  8
LAYER_1
 10
37.20509387510482
 20
-23.97519956351974
 30
0.0
  0
VERTEX
  5
23F
  8
LAYER_1
 10
34.32243489689561
 20
-29.06945598612924
 30
0.0
  0
VERTEX
  5
240
  8
LAYER_1
 10
42.33304648485952
 20
-24.43989259309102
 30
0.0
  0
SEQEND
  5
241
  8
LAYER_1
  0
POLYLINE
  5
74
  8
LAYER_1
 66
     1
 10
0.0
 20
0.0
 30
0.0
 70
     1
  0
VERTEX
  5
242
  8
LAYER_1
 10
35.04198031224641
 20
20.23487644709099
 30
0.0
  0
VERTEX
  5
243
  8
LAYER_1
 10
39.36966759326425
 20
20.23487743642841
 30
0.0
  0
VERTEX
  5
244
  8
LAYER_1
 10
42.35608884290016
 20
15.18644941573805
 30
0.0
  0
VERTEX
  5
245
  8
LAYER_1
 10
42.3330463023419
 20
24.44613299108464
 30
0.0
  0
VERTEX
  5
246
  8
LAYER_1
 10
34.32243471154275
 20
29.07569637922362
 30
0.0
  0
VERTEX
  5
247
  8
LAYER_1
 10
37.2050936928704
 20
23.98143995837388
 30
0.0
  0
SEQEND
  5
248
  8
LAYER_1
  0
POLYLINE
  5
75
  8
LAYER_1
 66
     1
 10
0.0
 20
0.0
 30
0.0
 70
     1
  0
VERTEX
  5
249
  8
LAYER_1
 10
29.07199385476504
 20
34.32603128323302
 30
0.0
  0
VERTEX
  5
24A
  8
LAYER_1
 10
24.44233222422243
 20
42.33656123401732
 30
0.0
  0
VERTEX
  5
24B
  8
LAYER_1
 10
15.18245607717993
 20
42.35960352433128
 30
0.0
  0
VERTEX
  5
24C
  8
LAYER_1
 10
20.23107869902254
 20
39.37316096896383
 30
0.0
  0
VERTEX
  5
24D
  8
LAYER_1
 10
20.23107771233234
 20
35.04557804420274
 30
0.0
  0
VERTEX
  5
24E
  8
LAYER_1
 10
23.97766805373544
 20
37.20863897448233
 30
0.0
  0
SEQEND
  5
24F
  8
LAYER_1
  0
POLYLINE
  5
76
  8
LAYER_1
 66
     1
 10
0.0
 20
0.0
 30
0.0
 70
     1
  0
VERTEX
  5
250
  8
LAYER_1
 10
8.02826205908897
 20
44.27652566286262
 30
0.0
  0
VERTEX
  5
251
  8
LAYER_1
 10
-0.0025695152571175
 20
48.88644858995696
 30
0.0
  0
VERTEX
  5
252
  8
LAYER_1
 10
-8.017322531715804
 20
44.26390875403385
 30
0.0
  0
VERTEX
  5
253
  8
LAYER_1
 10
-2.16411343462832
 20
44.21319676962401
 30
0.0
  0
VERTEX
  5
254
  8
LAYER_1
 10
-0.0010275728817153
 20
40.46668107148685
 30
0.0
  0
VERTEX
  5
255
  8
LAYER_1
 10
2.162787750075132
 20
44.2144622675094
 30
0.0
  0
SEQEND
  5
256
  8
LAYER_1
  0
POLYLINE
  5
77
  8
LAYER_1
 66
     1
 10
0.0
 20
0.0
 30
0.0
 70
     1
  0
VERTEX
  5
257
  8
LAYER_1
 10
-15.18451200399699
 20
42.35960379981339
 30
0.0
  0
VERTEX
  5
258
  8
LAYER_1
 10
-24.44438815100925
 20
42.33656150382946
 30
0.0
  0
VERTEX
  5
259
  8
LAYER_1
 10
-29.07404977665329
 20
34.32603155020927
 30
0.0
  0
VERTEX
  5
25A
  8
LAYER_1
 10
-23.9797239773828
 20
37.20863924457791
 30
0.0
  0
VERTEX
  5
25B
  8
LAYER_1
 10
-20.23313363465271
 20
35.04557831658965
 30
0.0
  0
VERTEX
  5
25C
  8
LAYER_1
 10
-20.23313462399731
 20
39.37316124135526
 30
0.0
  0
SEQEND
  5
25D
  8
LAYER_1
  0
POLYLINE
  5
78
  8
LAYER_1
 66
     1
 10
0.0
 20
0.0
 30
0.0
 70
     1
  0
VERTEX
  5
25E
  8
LAYER_1
 10
-34.32449063021176
 20
29.07569664298114
 30
0.0
  0
VERTEX
  5
25F
  8
LAYER_1
 10
-42.33510221817563
 20
24.44613324994281
 30
0.0
  0
VERTEX
  5
260
  8
LAYER_1
 10
-42.35814475306122
 20
15.18644967456332
 30
0.0
  0
VERTEX
  5
261
  8
LAYER_1
 10
-39.37172350651807
 20
20.23487769709899
 30
0.0
  0
VERTEX
  5
262
  8
LAYER_1
 10
-35.04403622550297
 20
20.23487671041401
 30
0.0
  0
VERTEX
  5
263
  8
LAYER_1
 10
-37.20714960842062
 20
23.98144022037178
 30
0.0
  0
SEQEND
  5
264
  8
LAYER_1
  0
POLYLINE
  5
79
  8
LAYER_1
 66
     1
 10
0.0
 20
0.0
 30
0.0
 70
     1
  0
VERTEX
  5
265
  8
LAYER_1
 10
-44.2751592370172
 20
8.032198641452544
 30
0.0
  0
VERTEX
  5
266
  8
LAYER_1
 10
-48.88510553100546
 20
0.0015786104634714
 30
0.0
  0
VERTEX
  5
267
  8
LAYER_1
 10
-44.26254229831869
 20
-8.012963227077789
 30
0.0
  0
VERTEX
  5
268
  8
LAYER_1
 10
-44.21183057361315
 20
-2.159967954006021
 30
0.0
  0
VERTEX
  5
269
  8
LAYER_1
 10
-40.4651924920009
 20
0.0031206220919404
 30
0.0
  0
VERTEX
  5
26A
  8
LAYER_1
 10
-44.21309616038111
 20
2.166938687765416
 30
0.0
  0
SEQEND
  5
26B
  8
LAYER_1
  0
POLYLINE
  5
7A
  8
LAYER_1
 66
     1
 10
0.0
 20
0.0
 30
0.0
 70
     1
  0
VERTEX
  5
26C
  8
LAYER_1
 10
-42.35814457621611
 20
-15.1802087588863
 30
0.0
  0
VERTEX
  5
26D
  8
LAYER_1
 10
-42.33510203565776
 20
-24.43989233423277
 30
0.0
  0
VERTEX
  5
26E
  8
LAYER_1
 10
-34.3244904448586
 20
-29.06945572237223
 30
0.0
  0
VERTEX
  5
26F
  8
LAYER_1
 10
-37.2071494261864
 20
-23.97519930152207
 30
0.0
  0
VERTEX
  5
270
  8
LAYER_1
 10
-35.04403604556245
 20
-20.22863579023979
 30
0.0
  0
VERTEX
  5
271
  8
LAYER_1
 10
-39.37172332658012
 20
-20.22863677957686
 30
0.0
  0
SEQEND
  5
272
  8
LAYER_1
  0
POLYLINE
  5
7B
  8
LAYER_1
 66
     1
 10
0.0
 20
0.0
 30
0.0
 70
     1
  0
VERTEX
  5
273
  8
LAYER_1
 10
-29.07404958808101
 20
-34.319790626381
 30
0.0
  0
VERTEX
  5
274
  8
LAYER_1
 10
-24.44438795753837
 20
-42.33032057716555
 30
0.0
  0
VERTEX
  5
275
  8
LAYER_1
 10
-15.18451181049588
 20
-42.35336286747918
 30
0.0
  0
VERTEX
  5
276
  8
LAYER_1
 10
-20.23313443233842
 20
-39.36692031211177
 30
0.0
  0
VERTEX
  5
277
  8
LAYER_1
 10
-20.23313344564812
 20
-35.03933738735059
 30
0.0
  0
VERTEX
  5
278
  8
LAYER_1
 10
-23.97972378705124
 20
-37.20239831763048
 30
0.0
  0
SEQEND
  5
279
  8
LAYER_1
  0
POLYLINE
  5
7C
  8
LAYER_1
 66
     1
 10
0.0
 20
0.0
 30
0.0
 70
     1
  0
VERTEX
  5
27A
  8
LAYER_1
 10
-8.030317627074893
 20
-44.27028471894559
 30
0.0
  0
VERTEX
  5
27B
  8
LAYER_1
 10
0.0005139472687051
 20
-48.88020764603869
 30
0.0
  0
VERTEX
  5
27C
  8
LAYER_1
 10
8.015266963729905
 20
-44.25766781011693
 30
0.0
  0
VERTEX
  5
27D
  8
LAYER_1
 10
2.162057866641575
 20
-44.20695582570631
 30
0.0
  0
VERTEX
  5
27E
  8
LAYER_1
 10
-0.0010279951064614
 20
-40.46044012757106
 30
0.0
  0
VERTEX
  5
27F
  8
LAYER_1
 10
-2.164843318063028
 20
-44.20822132359193
 30
0.0
  0
SEQEND
  5
280
  8
LAYER_1
  0
POLYLINE
  5
7D
  8
LAYER_1
 66
     1
 10
0.0
 20
0.0
 30
0.0
 70
     1
  0
VERTEX
  5
281
  8
LAYER_1
 10
15.18245627068092
 20
-42.35336314296113
 30
0.0
  0
VERTEX
  5
282
  8
LAYER_1
 10
24.4423324176933
 20
-42.33032084697683
 30
0.0
  0
VERTEX
  5
283
  8
LAYER_1
 10
29.07199404333734
 20
-34.31979089335768
 30
0.0
  0
VERTEX
  5
284
  8
LAYER_1
 10
23.97766824406695
 20
-37.20239858772552
 30
0.0
  0
VERTEX
  5
285
  8
LAYER_1
 10
20.23107790133684
 20
-35.03933765973723
 30
0.0
  0
VERTEX
  5
286
  8
LAYER_1
 10
20.23107889068145
 20
-39.36692058450269
 30
0.0
  0
SEQEND
  5
287
  8
LAYER_1
  0
POLYLINE
  5
7E
  8
LAYER_1
 66
     1
 10
0.0
 20
0.0
 30
0.0
 70
     1
  0
VERTEX
  5
288
  8
LAYER_1
 10
-54.59999999999999
 20
49.9910053706598
 30
0.0
  0
VERTEX
  5
289
  8
LAYER_1
 10
-50.001
 20
49.98949279361223
 30
0.0
  0
VERTEX
  5
28A
  8
LAYER_1
 10
-43.23163770567648
 20
49.99171934314045
 30
0.0
  0
VERTEX
  5
28B
  8
LAYER_1
 10
-43.22941360536135
 20
49.98949279361223
 30
0.0
  0
VERTEX
  5
28C
  8
LAYER_1
 10
-45.21318858315562
 20
48.0057489717929
 30
0.0
  0
VERTEX
  5
28D
  8
LAYER_1
 10
-45.21318858321676
 20
45.20057777886615
 30
0.0
  0
VERTEX
  5
28E
  8
LAYER_1
 10
-48.01824144735242
 20
45.20057777886881
 30
0.0
  0
VERTEX
  5
28F
  8
LAYER_1
 10
-49.99999261211214
 20
43.22124296306669
 30
0.0
  0
VERTEX
  5
290
  8
LAYER_1
 10
-50.001
 20
43.22124665250661
 30
0.0
  0
VERTEX
  5
291
  8
LAYER_1
 10
-50.00200738788786
 20
43.22124296306669
 30
0.0
  0
VERTEX
  5
292
  8
LAYER_1
 10
-51.98375855264757
 20
45.20057777886881
 30
0.0
  0
VERTEX
  5
293
  8
LAYER_1
 10
-54.59999999999999
 20
45.20057777886633
 30
0.0
  0
SEQEND
  5
294
  8
LAYER_1
  0
POLYLINE
  5
7F
  8
LAYER_1
 66
     1
 10
0.0
 20
0.0
 30
0.0
 70
     1
  0
VERTEX
  5
295
  8
LAYER_1
 10
-54.59999999999999
 20
-49.99168484714042
 30
0.0
  0
VERTEX
  5
296
  8
LAYER_1
 10
-50.001
 20
-49.99017227009285
 30
0.0
  0
VERTEX
  5
297
  8
LAYER_1
 10
-43.23163770567648
 20
-49.99239881962108
 30
0.0
  0
VERTEX
  5
298
  8
LAYER_1
 10
-43.22941360536135
 20
-49.99017227009285
 30
0.0
  0
VERTEX
  5
299
  8
LAYER_1
 10
-45.21318858315562
 20
-48.00642844827352
 30
0.0
  0
VERTEX
  5
29A
  8
LAYER_1
 10
-45.21318858321676
 20
-45.20125725534677
 30
0.0
  0
VERTEX
  5
29B
  8
LAYER_1
 10
-48.01824144735242
 20
-45.20125725534943
 30
0.0
  0
VERTEX
  5
29C
  8
LAYER_1
 10
-49.99999261211214
 20
-43.22192243954731
 30
0.0
  0
VERTEX
  5
29D
  8
LAYER_1
 10
-50.001
 20
-43.22192612898723
 30
0.0
  0
VERTEX
  5
29E
  8
LAYER_1
 10
-50.00200738788786
 20
-43.22192243954731
 30
0.0
  0
VERTEX
  5
29F
  8
LAYER_1
 10
-51.98375855264757
 20
-45.20125725534943
 30
0.0
  0
VERTEX
  5
2A0
  8
LAYER_1
 10
-54.59999999999999
 20
-45.20125725534695
 30
0.0
  0
SEQEND
  5
2A1
  8
LAYER_1
  0
POLYLINE
  5
80
  8
LAYER_1
 66
     1
 10
0.0
 20
0.0
 30
0.0
 70
     1
  0
VERTEX
  5
2A2
  8
LAYER_1
 10
-54.6
 20
-25.98136779781884
 30
0.0
  0
VERTEX
  5
2A3
  8
LAYER_1
 10
-50.001
 20
-23.32558802051324
 30
0.0
  0
VERTEX
  5
2A4
  8
LAYER_1
 10
-45.20850929187863
 20
-26.09312697783738
 30
0.0
  0
VERTEX
  5
2A5
  8
LAYER_1
 10
-45.20850929186967
 20
-32.97722543857262
 30
0.0
  0
VERTEX
  5
2A6
  8
LAYER_1
 10
-50.001
 20
-37.76959137615485
 30
0.0
  0
VERTEX
  5
2A7
  8
LAYER_1
 10
-54.60000000000002
 20
-33.17075149035207
 30
0.0
  0
SEQEND
  5
2A8
  8
LAYER_1
  0
POLYLINE
  5
81
  8
LAYER_1
 66
     1
 10
0.0
 20
0.0
 30
0.0
 70
     1
  0
VERTEX
  5
2A9
  8
LAYER_1
 10
-54.59999999999999
 20
-11.77327592044171
 30
0.0
  0
VERTEX
  5
2AA
  8
LAYER_1
 10
-50.001
 20
-3.859192241647702
 30
0.0
  0
VERTEX
  5
2AB
  8
LAYER_1
 10
-45.20850929189637
 20
-12.10631238303442
 30
0.0
  0
VERTEX
  5
2AC
  8
LAYER_1
 10
-45.20850929188468
 20
-21.62017613211525
 30
0.0
  0
VERTEX
  5
2AD
  8
LAYER_1
 10
-49.76392959629013
 20
-18.98899014232919
 30
0.0
  0
VERTEX
  5
2AE
  8
LAYER_1
 10
-49.87395586681821
 20
-18.92546743827405
 30
0.0
  0
VERTEX
  5
2AF
  8
LAYER_1
 10
-50.001
 20
-18.92546743827409
 30
0.0
  0
VERTEX
  5
2B0
  8
LAYER_1
 10
-50.12804413318179
 20
-18.92546743827405
 30
0.0
  0
VERTEX
  5
2B1
  8
LAYER_1
 10
-50.23807040370987
 20
-18.98899014232919
 30
0.0
  0
VERTEX
  5
2B2
  8
LAYER_1
 10
-54.6
 20
-21.50841695155085
 30
0.0
  0
SEQEND
  5
2B3
  8
LAYER_1
  0
POLYLINE
  5
82
  8
LAYER_1
 66
     1
 10
0.0
 20
0.0
 30
0.0
 70
     1
  0
VERTEX
  5
2B4
  8
LAYER_1
 10
-54.6
 20
-6.037385833639837
 30
0.0
  0
VERTEX
  5
2B5
  8
LAYER_1
 10
-51.11689446899453
 20
0.0015786104634714
 30
0.0
  0
VERTEX
  5
2B6
  8
LAYER_1
 10
-54.59999999999999
 20
6.069219156258612
 30
0.0
  0
SEQEND
  5
2B7
  8
LAYER_1
  0
POLYLINE
  5
83
  8
LAYER_1
 66
     1
 10
0.0
 20
0.0
 30
0.0
 70
     1
  0
VERTEX
  5
2B8
  8
LAYER_1
 10
-54.59999999999999
 20
21.51731588496389
 30
0.0
  0
VERTEX
  5
2B9
  8
LAYER_1
 10
-50.001
 20
18.86444803013589
 30
0.0
  0
VERTEX
  5
2BA
  8
LAYER_1
 10
-45.2165365841373
 20
21.6243210903116
 30
0.0
  0
VERTEX
  5
2BB
  8
LAYER_1
 10
-45.2188423816325
 20
12.11030103564349
 30
0.0
  0
VERTEX
  5
2BC
  8
LAYER_1
 10
-50.001
 20
3.889976844584559
 30
0.0
  0
VERTEX
  5
2BD
  8
LAYER_1
 10
-54.59999999999999
 20
11.79539508164208
 30
0.0
  0
SEQEND
  5
2BE
  8
LAYER_1
  0
POLYLINE
  5
84
  8
LAYER_1
 66
     1
 10
0.0
 20
0.0
 30
0.0
 70
     1
  0
VERTEX
  5
2BF
  8
LAYER_1
 10
-54.59999999999999
 20
33.16949727641696
 30
0.0
  0
VERTEX
  5
2C0
  8
LAYER_1
 10
-50.001
 20
37.77056679765393
 30
0.0
  0
VERTEX
  5
2C1
  8
LAYER_1
 10
-45.21378416603663
 20
32.98115579380211
 30
0.0
  0
VERTEX
  5
2C2
  8
LAYER_1
 10
-45.21545256402368
 20
26.09712893100837
 30
0.0
  0
VERTEX
  5
2C3
  8
LAYER_1
 10
-50.001
 20
23.33663021804014
 30
0.0
  0
VERTEX
  5
2C4
  8
LAYER_1
 10
-54.59999999999997
 20
25.9894982796644
 30
0.0
  0
SEQEND
  5
2C5
  8
LAYER_1
  0
POLYLINE
  5
85
  8
LAYER_1
 66
     1
 10
0.0
 20
0.0
 30
0.0
 70
     1
  0
VERTEX
  5
2C6
  8
LAYER_1
 10
54.59999999999999
 20
49.9910053706598
 30
0.0
  0
VERTEX
  5
2C7
  8
LAYER_1
 10
50.001
 20
49.98949279361223
 30
0.0
  0
VERTEX
  5
2C8
  8
LAYER_1
 10
43.23163770567648
 20
49.99171934314045
 30
0.0
  0
VERTEX
  5
2C9
  8
LAYER_1
 10
43.22941360536135
 20
49.98949279361223
 30
0.0
  0
VERTEX
  5
2CA
  8
LAYER_1
 10
45.21318858315562
 20
48.0057489717929
 30
0.0
  0
VERTEX
  5
2CB
  8
LAYER_1
 10
45.21318858321676
 20
45.20057777886615
 30
0.0
  0
VERTEX
  5
2CC
  8
LAYER_1
 10
48.01824144735242
 20
45.20057777886881
 30
0.0
  0
VERTEX
  5
2CD
  8
LAYER_1
 10
49.99999261211214
 20
43.22124296306669
 30
0.0
  0
VERTEX
  5
2CE
  8
LAYER_1
 10
50.001
 20
43.22124665250661
 30
0.0
  0
VERTEX
  5
2CF
  8
LAYER_1
 10
50.00200738788786
 20
43.22124296306669
 30
0.0
  0
VERTEX
  5
2D0
  8
LAYER_1
 10
51.98375855264757
 20
45.20057777886881
 30
0.0
  0
VERTEX
  5
2D1
  8
LAYER_1
 10
54.59999999999999
 20
45.20057777886633
 30
0.0
  0
SEQEND
  5
2D2
  8
LAYER_1
  0
POLYLINE
  5
86
  8
LAYER_1
 66
     1
 10
0.0
 20
0.0
 30
0.0
 70
     1
  0
VERTEX
  5
2D3
  8
LAYER_1
 10
54.59999999999999
 20
-49.99168484714042
 30
0.0
  0
VERTEX
  5
2D4
  8
LAYER_1
 10
50.001
 20
-49.99017227009285
 30
0.0
  0
VERTEX
  5
2D5
  8
LAYER_1
 10
43.23163770567648
 20
-49.99239881962108
 30
0.0
  0
VERTEX
  5
2D6
  8
LAYER_1
 10
43.22941360536135
 20
-49.99017227009285
 30
0.0
  0
VERTEX
  5
2D7
  8
LAYER_1
 10
45.21318858315562
 20
-48.00642844827352
 30
0.0
  0
VERTEX
  5
2D8
  8
LAYER_1
 10
45.21318858321676
 20
-45.20125725534677
 30
0.0
  0
VERTEX
  5
2D9
  8
LAYER_1
 10
48.01824144735242
 20
-45.20125725534943
 30
0.0
  0
VERTEX
  5
2DA
  8
LAYER_1
 10
49.99999261211214
 20
-43.22192243954731
 30
0.0
  0
VERTEX
  5
2DB
  8
LAYER_1
 10
50.001
 20
-43.22192612898723
 30
0.0
  0
VERTEX
  5
2DC
  8
LAYER_1
 10
50.00200738788786
 20
-43.22192243954731
 30
0.0
  0
VERTEX
  5
2DD
  8
LAYER_1
 10
51.98375855264757
 20
-45.20125725534943
 30
0.0
  0
VERTEX
  5
2DE
  8
LAYER_1
 10
54.59999999999999
 20
-45.20125725534695
 30
0.0
  0
SEQEND
  5
2DF
  8
LAYER_1
  0
POLYLINE
  5
87
  8
LAYER_1
 66
     1
 10
0.0
 20
0.0
 30
0.0
 70
     1
  0
VERTEX
  5
2E0
  8
LAYER_1
 10
54.6
 20
-25.98136779781884
 30
0.0
  0
VERTEX
  5
2E1
  8
LAYER_1
 10
50.001
 20
-23.32558802051324
 30
0.0
  0
VERTEX
  5
2E2
  8
LAYER_1
 10
45.20850929187863
 20
-26.09312697783738
 30
0.0
  0
VERTEX
  5
2E3
  8
LAYER_1
 10
45.20850929186967
 20
-32.97722543857262
 30
0.0
  0
VERTEX
  5
2E4
  8
LAYER_1
 10
50.001
 20
-37.76959137615485
 30
0.0
  0
VERTEX
  5
2E5
  8
LAYER_1
 10
54.60000000000002
 20
-33.17075149035207
 30
0.0
  0
SEQEND
  5
2E6
  8
LAYER_1
  0
POLYLINE
  5
88
  8
LAYER_1
 66
     1
 10
0.0
 20
0.0
 30
0.0
 70
     1
  0
VERTEX
  5
2E7
  8
LAYER_1
 10
54.59999999999999
 20
-11.77327592044171
 30
0.0
  0
VERTEX
  5
2E8
  8
LAYER_1
 10
50.001
 20
-3.859192241647702
 30
0.0
  0
VERTEX
  5
2E9
  8
LAYER_1
 10
45.20850929189637
 20
-12.10631238303442
 30
0.0
  0
VERTEX
  5
2EA
  8
LAYER_1
 10
45.20850929188468
 20
-21.62017613211525
 30
0.0
  0
VERTEX
  5
2EB
  8
LAYER_1
 10
49.76392959629013
 20
-18.98899014232919
 30
0.0
  0
VERTEX
  5
2EC
  8
LAYER_1
 10
49.87395586681821
 20
-18.92546743827405
 30
0.0
  0
VERTEX
  5
2ED
  8
LAYER_1
 10
50.001
 20
-18.92546743827409
 30
0.0
  0
VERTEX
  5
2EE
  8
LAYER_1
 10
50.12804413318179
 20
-18.92546743827405
 30
0.0
  0
VERTEX
  5
2EF
  8
LAYER_1
 10
50.23807040370987
 20
-18.98899014232919
 30
0.0
  0
VERTEX
  5
2F0
  8
LAYER_1
 10
54.6
 20
-21.50841695155085
 30
0.0
  0
SEQEND
  5
2F1
  8
LAYER_1
  0
POLYLINE
  5
89
  8
LAYER_1
 66
     1
 10
0.0
 20
0.0
 30
0.0
 70
     1
  0
VERTEX
  5
2F2
  8
LAYER_1
 10
54.6
 20
-6.037385833639837
 30
0.0
  0
VERTEX
  5
2F3
  8
LAYER_1
 10
51.11689446899453
 20
0.0015786104634714
 30
0.0
  0
VERTEX
  5
2F4
  8
LAYER_1
 10
54.59999999999999
 20
6.069219156258612
 30
0.0
  0
SEQEND
  5
2F5
  8
LAYER_1
  0
POLYLINE
  5
8A
  8
LAYER_1
 66
     1
 10
0.0
 20
0.0
 30
0.0
 70
     1
  0
VERTEX
  5
2F6
  8
LAYER_1
 10
54.59999999999999
 20
21.51731588496389
 30
0.0
  0
VERTEX
  5
2F7
  8
LAYER_1
 10
50.001
 20
18.86444803013589
 30
0.0
  0
VERTEX
  5
2F8
  8
LAYER_1
 10
45.2165365841373
 20
21.6243210903116
 30
0.0
  0
VERTEX
  5
2F9
  8
LAYER_1
 10
45.2188423816325
 20
12.11030103564349
 30
0.0
  0
VERTEX
  5
2FA
  8
LAYER_1
 10
50.001
 20
3.889976844584559
 30
0.0
  0
VERTEX
  5
2FB
  8
LAYER_1
 10
54.59999999999999
 20
11.79539508164208
 30
0.0
  0
SEQEND
  5
2FC
  8
LAYER_1
  0
POLYLINE
  5
8B
  8
LAYER_1
 66
     1
 10
0.0
 20
0.0
 30
0.0
 70
     1
  0
VERTEX
  5
2FD
  8
LAYER_1
 10
54.59999999999999
 20
33.16949727641696
 30
0.0
  0
VERTEX
  5
2FE
  8
LAYER_1
 10
50.001
 20
37.77056679765393
 30
0.0
  0
VERTEX
  5
2FF
  8
LAYER_1
 10
45.21378416603663
 20
32.98115579380211
 30
0.0
  0
VERTEX
  5
300
  8
LAYER_1
 10
45.21545256402368
 20
26.09712893100837
 30
0.0
  0
VERTEX
  5
301
  8
LAYER_1
 10
50.001
 20
23.33663021804014
 30
0.0
  0
VERTEX
  5
302
  8
LAYER_1
 10
54.59999999999997
 20
25.9894982796644
 30
0.0
  0
SEQEND
  5
303
  8
LAYER_1
  0
POLYLINE
  5
8C
  8
LAYER_1
 66
     1
 10
0.0
 20
0.0
 30
0.0
 70
     1
  0
VERTEX
  5
304
  8
LAYER_1
 10
-60.0
 20
-55.0
 30
0.0
  0
VERTEX
  5
305
  8
LAYER_1
 10
60.0
 20
-55.0
 30
0.0
  0
VERTEX
  5
306
  8
LAYER_1
 10
60.0
 20
55.0
 30
0.0
  0
VERTEX
  5
307
  8
LAYER_1
 10
-60.0
 20
55.0
 30
0.0
  0
SEQEND
  5
308
  8
LAYER_1
  0
ENDSEC
  0
EOF
